Monday, October 20, 2014

Strat Setup

This is THE WAY to set up your Floating Tremolo on a Stratocaster.  I am so glad I found this video.  Why didn't I know this sooner?!  I hope this is as helpful to someone else as it was to me. 

 

Tuesday, October 7, 2014

More prodigious technique.

I think there is a movement toward this kind of propulsive left hand technique.  I like it!

Saturday, September 20, 2014

Kurt Rosenwinkel's Magic

This lick appears at about 32 secs into the track Safe Corners from Kurt's Remedy album.  It points to the kind of left hand propulsion that I think is one his trademarks.  These licks that just jump off of the guitar like a Romanian gymnast's tumbling routine.  It's a beautiful flourish in the middle of a beautiful improvised intro.   

Thursday, July 3, 2014

An exercise to stretch the fingers and the ears.

I recently watched a YouTube video about fourths and realized while trying to fall asleep that the exercise described in the video could be applied to the guitar as a way of teaching position shifts, fingerings and the like in a contextual way.  Like a muscle memory formula.  If then...



So the exercise is this.  Pick a note, pick a finger to play that note and pick a note within one octave of that note to be the upper or lower limit of the octave in which you will play the entire cycle of fourths or fifths ascending or descending.  This forces one to concentrate!  Once you've played through the entire cycle the fingerings will become a pattern and you will repeat the cycle with the same optimum fingering.  Now, change one variable in that equation, be it the starting note, the finger you play it with, the octave in which you play the cycle and go again. This exercise forces you to be conscious of your instrument in a particular way that is useful to improvisation and to sight-reading and because the harmonic component is so void you can focus on the technical challenges that every guitarist must overcome in order to play music fluidly (ie. spatial awareness of the fretboard and the mechanics of your left hand.)  There is more to be said but now that the gist is here I'll write more at another time.  

Saturday, June 28, 2014

Fanatical Behavior

While I am a musician I am also a music fan and fan of other musicians.  I waited for what seemed to my wife to be an excessive amount of time to have a word with Kurt Rosenwinkel after the Human Feel concert tonight.  It gave me a chance to pay some compliments to other musicians who performed during the night but when the gathered crowd was dwindelling and there was still no sign of Kurt, Ioana said let's go, and we went.  I explained it to her this way: I wanted to tell him thank you for being an inspiration.  I also thought I'd snap a picture of him for my wall of fame.  I realize now and really have for some time that this is perhaps juvenile but the admiration I feel for these guitarists who've inspired my development is real.  Instead of a picture I left with a sonic impression of the evening's music and glimpses of great technique that got me thinking about what goes on in Kurt's mind and fingers so I came home and practiced.  I worked out a diminished pattern that is not on my list but should be so I'll list it here:

|--9-8------8-6-----6-5-----5-3-----3-2----
|------8-10-----7-8-----5-7-----4-5-----2-4
|------------------------------------------
|------------------------------------------
|------------------------------------------
|------------------------------------------ 

Also I noticed Kurt do something like this:
|------0--------------------------------
|--7-6---------0------------------------
|--------8-7-6---------0----------------
|----------------8-7-6---------0--------
|------------------------8-7-6---------0
|--------------------------------8-7-6--

That got me thinking about other open string ideas such as:
|----------------------------0---3
|----------------------0---3---6--
|----------------0---3---6--------
|----------0---3---6--------------
|----0---3---6--------------------
|--3---6--------------------------

On the way home, my wife asked me how he made his guitar sound like a bass and an organ and I knew the answer and I knew that someday I could do the same if circumstances warranted it.  I guess it would be more realistic to expect that when you go to a concert you will hear music, not necessarily meet up with the artists who make it.  But what if you want to thank them for the music and demonstrate that they've made a valuable contribution to your musical thinking?  Then you write them a thank you letter or you write a song that expresses such.  Someone like Kurt has given guitarists and musicians in general so much to think about that our artistic debt is sort of self-evident.     He's the man!  Anyway, I'm not a sycophant, just a fan and a musician thankful to everyone whose made an impact on my musical development.





|--------12-11\8--------9-8\5------6-5\2------3
|--13-14----------10-11--------7-8--------4-5--
|----------------------------------------------
|----------------------------------------------
|----------------------------------------------
|----------------------------------------------

|--------14-12\11--------12-11\9--------11-9\8-------9-8\6-
|--13-14-----------11-13----------10-11---------8-10-------
|----------------------------------------------------------
|----------------------------------------------------------
|----------------------------------------------------------
|----------------------------------------------------------


The other side to all this is that you feel the onus of what you wish to become, artistically.  You feel inspired to grow.  Anyway, music has always been a source of joy and the sort of malingering that goes on after a concert is fine to a point but one should never feel disappointed because you didn't get a word in or a photo with your particular guitar hero.  You got what you came for and that's the music.  


Tuesday, June 17, 2014

Diminished Patterns

|--8-12-8-------9---------------------------------------------
|---------11-10---10-8----11--------8-------------------------
|----------------------11----11-9-8---8-------9---------------
|---------------------------------------11-10---10-8-7-11-7---
|-----------------------------------------------------------10
|------------------------------------------------------------- etc.


|--8-11-8-------8----------------------------------
|---------11-10---10-8----10-----------------------
|----------------------11----11-9-8-11-8-------8---
|----------------------------------------11-10---10
|--------------------------------------------------
|-------------------------------------------------- etc.


|--9-12-9-8----9-------------------------------------
|-----------11---11-10-8-11-8------8-----------------
|-----------------------------11-9---9-8----9--------
|----------------------------------------11---11-10-8
|----------------------------------------------------
|---------------------------------------------------- etc.

|-----11---------8--------------------------------------------------
|--11----11-10-8---8------10----------------------------------------
|--------------------11-9----9-8----11---------8--------------------
|--------------------------------11----11-10-8---8-------10--------7
|--------------------------------------------------11-10----10-8-7--
|------------------------------------------------------------------- etc.

|-----12---------9----------------------------------------
|--11----11-10-8---8------11--------8---------------------
|--------------------11-9----9-8--------------9-----------
|--------------------------------11---11-10-8---8-------11
|-------------------------------------------------12-10---
|--------------------------------------------------------- etc.


|-----11---------8--------------------------------
|--10----10-8-------------10----------------------
|-------------11---11-9-8----8-------11--------8--
|------------------------------11-10----10-8-7---7
|-------------------------------------------------
|------------------------------------------------- etc.

|--11-9------8-----------------------------------------------
|-------10-8---11------10-8----------------------------------
|-----------------11-9------8----11-9------8-----------------
|-----------------------------11------10-8---11-7----10-8----
|-------------------------------------------------10------9-7
|------------------------------------------------------------ etc.

|--11-12-9-8--------------------------
|------------10-11-8-7----------------
|----------------------8-9-6-5--------
|------------------------------7-8-5-4
|-------------------------------------
|------------------------------------- etc.

|--8-9-8----------------------------------------------------
|-----------10-11-10----7-8-7-------------------------------
|--------12----------------------8-9-8----------------------
|--------------------14-------11-------8-10-11-10----7-8-7--
|-------------------------------------------------10-------7
|----------------------------------------------------------- etc.

|--8-9-------------------------------------------------------
|------10-8-10-11--------------------------------------------
|-----------------11-9-11-12-8----8-9------------------------
|------------------------------11-----10-8-10-11-7----7-8----
|--------------------------------------------------10-----9-7
|------------------------------------------------------------ etc.

|--12-11------9-8----------------------------------
|--------11-8-----8---11-10------8-----------------
|-------------------9-------9------11------9-8-----
|-----------------------------11------11-8-----8---
|------------------------------------------------10
|-------------------------------------------------- etc.


http://www.hotfrets.com/tabWriter.asp

Kind of handy!